ISO-10303-21;
HEADER;
FILE_DESCRIPTION (( 'STEP AP203' ),
    '1' );
FILE_NAME ('BK7-LPDBSP-25.4-650.STEP',
    '2020-12-22T02:19:14',
    ( '' ),
    ( '' ),
    'SwSTEP 2.0',
    'SolidWorks 2020',
    '' );
FILE_SCHEMA (( 'CONFIG_CONTROL_DESIGN' ));
ENDSEC;

DATA;
#1 = CIRCLE ( 'NONE', #52, 12.69999999999999929 ) ;
#2 = APPROVAL_STATUS ( 'not_yet_approved' ) ;
#3 = ORIENTED_EDGE ( 'NONE', *, *, #16, .F. ) ;
#4 = CC_DESIGN_APPROVAL ( #169, ( #75 ) ) ;
#5 = CIRCLE ( 'NONE', #151, 12.69999999999999929 ) ;
#6 = APPROVAL ( #2, 'UNSPECIFIED' ) ;
#7 = DIRECTION ( 'NONE',  ( 0.000000000000000000, 0.000000000000000000, 1.000000000000000000 ) ) ;
#8 = PLANE ( 'NONE',  #84 ) ;
#9 = DIRECTION ( 'NONE',  ( 0.000000000000000000, 0.000000000000000000, 1.000000000000000000 ) ) ;
#10 = CARTESIAN_POINT ( 'NONE',  ( -1.187907395172932594E-15, 0.000000000000000000, 0.000000000000000000 ) ) ;
#11 = CALENDAR_DATE ( 2020, 22, 12 ) ;
#12 = MANIFOLD_SOLID_BREP ( 'Ðý×', #83 ) ;
#13 = CC_DESIGN_DATE_AND_TIME_ASSIGNMENT ( #95, #116, ( #70 ) ) ;
#14 = AXIS2_PLACEMENT_3D ( 'NONE', #156, #49, #33 ) ;
#15 = APPROVAL_DATE_TIME ( #48, #6 ) ;
#16 = EDGE_CURVE ( 'NONE', #129, #96, #29, .T. ) ;
#17 = ORIENTED_EDGE ( 'NONE', *, *, #78, .T. ) ;
#18 = CC_DESIGN_PERSON_AND_ORGANIZATION_ASSIGNMENT ( #168, #67, ( #70 ) ) ;
#19 = ORIENTED_EDGE ( 'NONE', *, *, #93, .T. ) ;
#20 = APPROVAL_PERSON_ORGANIZATION ( #65, #6, #35 ) ;
#21 = VECTOR ( 'NONE', #98, 1000.000000000000000 ) ;
#22 = EDGE_CURVE ( 'NONE', #36, #76, #1, .T. ) ;
#23 = ADVANCED_FACE ( 'NONE', ( #107 ), #85, .T. ) ;
#24 = CARTESIAN_POINT ( 'NONE',  ( 0.000000000000000000, 0.000000000000000000, 0.000000000000000000 ) ) ;
#25 = PRODUCT ( 'BK7-LPDBSP-25.4-650', 'BK7-LPDBSP-25.4-650', '', ( #77 ) ) ;
#26 =( NAMED_UNIT ( * ) PLANE_ANGLE_UNIT ( ) SI_UNIT ( $, .RADIAN. ) );
#27 = CARTESIAN_POINT ( 'NONE',  ( 0.000000000000000000, 1.555301434917138433E-15, -12.69999999999999929 ) ) ;
#28 = DIRECTION ( 'NONE',  ( -1.000000000000000000, 0.000000000000000000, -0.000000000000000000 ) ) ;
#29 = CIRCLE ( 'NONE', #125, 12.69999999999999929 ) ;
#30 = APPLICATION_CONTEXT ( 'configuration controlled 3d designs of mechanical parts and assemblies' ) ;
#31 = LOCAL_TIME ( 10, 19, 14.00000000000000000, #131 ) ;
#32 = AXIS2_PLACEMENT_3D ( 'NONE', #24, #154, #109 ) ;
#33 = DIRECTION ( 'NONE',  ( 1.000000000000000000, 0.000000000000000000, 0.000000000000000000 ) ) ;
#34 = ORIENTED_EDGE ( 'NONE', *, *, #163, .F. ) ;
#35 = APPROVAL_ROLE ( '' ) ;
#36 = VERTEX_POINT ( 'NONE', #72 ) ;
#37 = PERSON_AND_ORGANIZATION ( #117, #64 ) ;
#38 = ORIENTED_EDGE ( 'NONE', *, *, #54, .T. ) ;
#39 = APPROVAL_ROLE ( '' ) ;
#40 = CARTESIAN_POINT ( 'NONE',  ( -1.187907395172932594E-15, 0.000000000000000000, 0.000000000000000000 ) ) ;
#41 = CARTESIAN_POINT ( 'NONE',  ( -5.939536975864662969E-16, 12.69999999999999929, 0.000000000000000000 ) ) ;
#42 = ADVANCED_FACE ( 'NONE', ( #60 ), #99, .F. ) ;
#43 = CC_DESIGN_DATE_AND_TIME_ASSIGNMENT ( #139, #66, ( #46 ) ) ;
#44 = CC_DESIGN_APPROVAL ( #6, ( #46 ) ) ;
#45 = CIRCLE ( 'NONE', #173, 12.69999999999999929 ) ;
#46 = PRODUCT_DEFINITION ( 'UNKNOWN', '', #75, #126 ) ;
#47 = LOCAL_TIME ( 10, 19, 14.00000000000000000, #161 ) ;
#48 = DATE_AND_TIME ( #138, #155 ) ;
#49 = DIRECTION ( 'NONE',  ( 0.000000000000000000, 0.000000000000000000, 1.000000000000000000 ) ) ;
#50 = CC_DESIGN_PERSON_AND_ORGANIZATION_ASSIGNMENT ( #149, #115, ( #46 ) ) ;
#51 = LOCAL_TIME ( 10, 19, 14.00000000000000000, #88 ) ;
#52 = AXIS2_PLACEMENT_3D ( 'NONE', #10, #89, #111 ) ;
#53 = PERSON_AND_ORGANIZATION ( #117, #64 ) ;
#54 = EDGE_CURVE ( 'NONE', #76, #36, #45, .T. ) ;
#55 = CARTESIAN_POINT ( 'NONE',  ( 3.499999999999998224, 0.000000000000000000, 12.69999999999999929 ) ) ;
#56 = CC_DESIGN_APPROVAL ( #143, ( #70 ) ) ;
#57 = CARTESIAN_POINT ( 'NONE',  ( 0.000000000000000000, 0.000000000000000000, 0.000000000000000000 ) ) ;
#58 = CARTESIAN_POINT ( 'NONE',  ( 0.000000000000000000, 0.000000000000000000, 12.69999999999999929 ) ) ;
#59 = ADVANCED_FACE ( 'NONE', ( #145 ), #97, .T. ) ;
#60 = FACE_OUTER_BOUND ( 'NONE', #164, .T. ) ;
#61 = AXIS2_PLACEMENT_3D ( 'NONE', #57, #157, #7 ) ;
#62 = APPROVAL_STATUS ( 'not_yet_approved' ) ;
#63 = ORIENTED_EDGE ( 'NONE', *, *, #16, .T. ) ;
#64 = ORGANIZATION ( 'UNSPECIFIED', 'UNSPECIFIED', '' ) ;
#65 = PERSON_AND_ORGANIZATION ( #117, #64 ) ;
#66 = DATE_TIME_ROLE ( 'creation_date' ) ;
#67 = PERSON_AND_ORGANIZATION_ROLE ( 'classification_officer' ) ;
#68 = EDGE_LOOP ( 'NONE', ( #137, #63, #114, #94 ) ) ;
#69 = PERSON_AND_ORGANIZATION_ROLE ( 'design_supplier' ) ;
#70 = SECURITY_CLASSIFICATION ( '', '', #128 ) ;
#71 = PRODUCT_DEFINITION_SHAPE ( 'NONE', 'NONE',  #46 ) ;
#72 = CARTESIAN_POINT ( 'NONE',  ( -1.187907395172932594E-15, 1.555301434917138433E-15, -12.69999999999999929 ) ) ;
#73 = DIRECTION ( 'NONE',  ( -0.000000000000000000, 0.000000000000000000, 1.000000000000000000 ) ) ;
#74 = FACE_OUTER_BOUND ( 'NONE', #92, .T. ) ;
#75 = PRODUCT_DEFINITION_FORMATION_WITH_SPECIFIED_SOURCE ( 'ANY', '', #25, .NOT_KNOWN. ) ;
#76 = VERTEX_POINT ( 'NONE', #110 ) ;
#77 = MECHANICAL_CONTEXT ( 'NONE', #30, 'mechanical' ) ;
#78 = EDGE_CURVE ( 'NONE', #129, #36, #146, .T. ) ;
#79 = APPLICATION_PROTOCOL_DEFINITION ( 'international standard', 'config_control_design', 1994, #158 ) ;
#80 = PERSON_AND_ORGANIZATION ( #117, #64 ) ;
#81 = APPROVAL_DATE_TIME ( #124, #169 ) ;
#82 = CC_DESIGN_SECURITY_CLASSIFICATION ( #70, ( #75 ) ) ;
#83 = CLOSED_SHELL ( 'NONE', ( #59, #23, #101, #42 ) ) ;
#84 = AXIS2_PLACEMENT_3D ( 'NONE', #120, #28, #73 ) ;
#85 = CYLINDRICAL_SURFACE ( 'NONE', #32, 12.69999999999999929 ) ;
#86 = CARTESIAN_POINT ( 'NONE',  ( 3.499999999999998224, 1.555301434917138433E-15, -12.69999999999999929 ) ) ;
#87 = DIRECTION ( 'NONE',  ( -1.000000000000000000, -0.000000000000000000, -0.000000000000000000 ) ) ;
#88 = COORDINATED_UNIVERSAL_TIME_OFFSET ( 8, 0, .AHEAD. ) ;
#89 = DIRECTION ( 'NONE',  ( -1.000000000000000000, -0.000000000000000000, -0.000000000000000000 ) ) ;
#90 = APPLICATION_PROTOCOL_DEFINITION ( 'international standard', 'config_control_design', 1994, #30 ) ;
#91 = CALENDAR_DATE ( 2020, 22, 12 ) ;
#92 = EDGE_LOOP ( 'NONE', ( #140, #3 ) ) ;
#93 = EDGE_CURVE ( 'NONE', #96, #129, #5, .T. ) ;
#94 = ORIENTED_EDGE ( 'NONE', *, *, #22, .F. ) ;
#95 = DATE_AND_TIME ( #106, #31 ) ;
#96 = VERTEX_POINT ( 'NONE', #55 ) ;
#97 = CYLINDRICAL_SURFACE ( 'NONE', #61, 12.69999999999999929 ) ;
#98 = DIRECTION ( 'NONE',  ( -1.000000000000000000, -0.000000000000000000, -0.000000000000000000 ) ) ;
#99 = PLANE ( 'NONE',  #165 ) ;
#100 =( NAMED_UNIT ( * ) SI_UNIT ( $, .STERADIAN. ) SOLID_ANGLE_UNIT ( ) );
#101 = ADVANCED_FACE ( 'NONE', ( #74 ), #8, .F. ) ;
#102 = COORDINATED_UNIVERSAL_TIME_OFFSET ( 8, 0, .AHEAD. ) ;
#103 = ORIENTED_EDGE ( 'NONE', *, *, #54, .F. ) ;
#104 = CC_DESIGN_PERSON_AND_ORGANIZATION_ASSIGNMENT ( #53, #69, ( #75 ) ) ;
#105 = COORDINATED_UNIVERSAL_TIME_OFFSET ( 8, 0, .AHEAD. ) ;
#106 = CALENDAR_DATE ( 2020, 22, 12 ) ;
#107 = FACE_OUTER_BOUND ( 'NONE', #68, .T. ) ;
#108 = CC_DESIGN_PERSON_AND_ORGANIZATION_ASSIGNMENT ( #147, #159, ( #25 ) ) ;
#109 = DIRECTION ( 'NONE',  ( 0.000000000000000000, 0.000000000000000000, 1.000000000000000000 ) ) ;
#110 = CARTESIAN_POINT ( 'NONE',  ( -1.187907395172932594E-15, 0.000000000000000000, 12.69999999999999929 ) ) ;
#111 = DIRECTION ( 'NONE',  ( 0.000000000000000000, 0.000000000000000000, 1.000000000000000000 ) ) ;
#112 = APPROVAL_PERSON_ORGANIZATION ( #127, #169, #113 ) ;
#113 = APPROVAL_ROLE ( '' ) ;
#114 = ORIENTED_EDGE ( 'NONE', *, *, #163, .T. ) ;
#115 = PERSON_AND_ORGANIZATION_ROLE ( 'creator' ) ;
#116 = DATE_TIME_ROLE ( 'classification_date' ) ;
#117 = PERSON ( 'UNSPECIFIED', 'UNSPECIFIED', 'UNSPECIFIED', ('UNSPECIFIED'), ('UNSPECIFIED'), ('UNSPECIFIED') ) ;
#118 = CARTESIAN_POINT ( 'NONE',  ( 3.499999999999998224, 0.000000000000000000, 0.000000000000000000 ) ) ;
#119 = APPROVAL_STATUS ( 'not_yet_approved' ) ;
#120 = CARTESIAN_POINT ( 'NONE',  ( 3.499999999999999112, 12.69999999999999929, 0.000000000000000000 ) ) ;
#121 = DIRECTION ( 'NONE',  ( 0.000000000000000000, 0.000000000000000000, 1.000000000000000000 ) ) ;
#122 = VECTOR ( 'NONE', #87, 1000.000000000000000 ) ;
#123 = DIRECTION ( 'NONE',  ( 1.000000000000000000, 0.000000000000000000, 0.000000000000000000 ) ) ;
#124 = DATE_AND_TIME ( #11, #51 ) ;
#125 = AXIS2_PLACEMENT_3D ( 'NONE', #118, #167, #135 ) ;
#126 = DESIGN_CONTEXT ( 'detailed design', #158, 'design' ) ;
#127 = PERSON_AND_ORGANIZATION ( #117, #64 ) ;
#128 = SECURITY_CLASSIFICATION_LEVEL ( 'unclassified' ) ;
#129 = VERTEX_POINT ( 'NONE', #86 ) ;
#130 = APPROVAL_PERSON_ORGANIZATION ( #37, #143, #39 ) ;
#131 = COORDINATED_UNIVERSAL_TIME_OFFSET ( 8, 0, .AHEAD. ) ;
#132 = ADVANCED_BREP_SHAPE_REPRESENTATION ( 'BK7-LPDBSP-25.4-650', ( #12, #14 ), #171 ) ;
#133 = DIRECTION ( 'NONE',  ( -1.000000000000000000, -0.000000000000000000, -0.000000000000000000 ) ) ;
#134 = CARTESIAN_POINT ( 'NONE',  ( 3.499999999999998224, 0.000000000000000000, 0.000000000000000000 ) ) ;
#135 = DIRECTION ( 'NONE',  ( 0.000000000000000000, 0.000000000000000000, 1.000000000000000000 ) ) ;
#136 =( LENGTH_UNIT ( ) NAMED_UNIT ( * ) SI_UNIT ( .MILLI., .METRE. ) );
#137 = ORIENTED_EDGE ( 'NONE', *, *, #78, .F. ) ;
#138 = CALENDAR_DATE ( 2020, 22, 12 ) ;
#139 = DATE_AND_TIME ( #91, #47 ) ;
#140 = ORIENTED_EDGE ( 'NONE', *, *, #93, .F. ) ;
#141 = APPROVAL_DATE_TIME ( #152, #143 ) ;
#142 = PERSON_AND_ORGANIZATION_ROLE ( 'creator' ) ;
#143 = APPROVAL ( #119, 'UNSPECIFIED' ) ;
#144 = LOCAL_TIME ( 10, 19, 14.00000000000000000, #105 ) ;
#145 = FACE_OUTER_BOUND ( 'NONE', #150, .T. ) ;
#146 = LINE ( 'NONE', #27, #122 ) ;
#147 = PERSON_AND_ORGANIZATION ( #117, #64 ) ;
#148 = PRODUCT_RELATED_PRODUCT_CATEGORY ( 'detail', '', ( #25 ) ) ;
#149 = PERSON_AND_ORGANIZATION ( #117, #64 ) ;
#150 = EDGE_LOOP ( 'NONE', ( #19, #17, #103, #34 ) ) ;
#151 = AXIS2_PLACEMENT_3D ( 'NONE', #134, #174, #9 ) ;
#152 = DATE_AND_TIME ( #166, #144 ) ;
#153 = SHAPE_DEFINITION_REPRESENTATION ( #71, #132 ) ;
#154 = DIRECTION ( 'NONE',  ( -1.000000000000000000, -0.000000000000000000, -0.000000000000000000 ) ) ;
#155 = LOCAL_TIME ( 10, 19, 14.00000000000000000, #102 ) ;
#156 = CARTESIAN_POINT ( 'NONE',  ( 0.000000000000000000, 0.000000000000000000, 0.000000000000000000 ) ) ;
#157 = DIRECTION ( 'NONE',  ( -1.000000000000000000, -0.000000000000000000, -0.000000000000000000 ) ) ;
#158 = APPLICATION_CONTEXT ( 'configuration controlled 3d designs of mechanical parts and assemblies' ) ;
#159 = PERSON_AND_ORGANIZATION_ROLE ( 'design_owner' ) ;
#160 = ORIENTED_EDGE ( 'NONE', *, *, #22, .T. ) ;
#161 = COORDINATED_UNIVERSAL_TIME_OFFSET ( 8, 0, .AHEAD. ) ;
#162 = UNCERTAINTY_MEASURE_WITH_UNIT (LENGTH_MEASURE( 1.000000000000000082E-05 ), #136, 'distance_accuracy_value', 'NONE');
#163 = EDGE_CURVE ( 'NONE', #96, #76, #172, .T. ) ;
#164 = EDGE_LOOP ( 'NONE', ( #38, #160 ) ) ;
#165 = AXIS2_PLACEMENT_3D ( 'NONE', #41, #123, #170 ) ;
#166 = CALENDAR_DATE ( 2020, 22, 12 ) ;
#167 = DIRECTION ( 'NONE',  ( -1.000000000000000000, -0.000000000000000000, -0.000000000000000000 ) ) ;
#168 = PERSON_AND_ORGANIZATION ( #117, #64 ) ;
#169 = APPROVAL ( #62, 'UNSPECIFIED' ) ;
#170 = DIRECTION ( 'NONE',  ( 0.000000000000000000, 0.000000000000000000, -1.000000000000000000 ) ) ;
#171 =( GEOMETRIC_REPRESENTATION_CONTEXT ( 3 ) GLOBAL_UNCERTAINTY_ASSIGNED_CONTEXT ( ( #162 ) ) GLOBAL_UNIT_ASSIGNED_CONTEXT ( ( #136, #26, #100 ) ) REPRESENTATION_CONTEXT ( 'NONE', 'WORKASPACE' ) );
#172 = LINE ( 'NONE', #58, #21 ) ;
#173 = AXIS2_PLACEMENT_3D ( 'NONE', #40, #133, #121 ) ;
#174 = DIRECTION ( 'NONE',  ( -1.000000000000000000, -0.000000000000000000, -0.000000000000000000 ) ) ;
#175 = CC_DESIGN_PERSON_AND_ORGANIZATION_ASSIGNMENT ( #80, #142, ( #75 ) ) ;
ENDSEC;
END-ISO-10303-21;
